"Surfin' Cow" Tab

1987 Golf Pro Music

notated by Joe Jack Talcum, written by The Dead Milkmen




E -0-   ---   ---  ---  ---  ---   ---  ---   ---  ---  ---   ---   ---   ---   ---  ---

B -0-   -0-   -3-  -0-  -1-  -0-   ---  -0-   ---  -0-  ---   ---   ---   -0-   -1-  -0-

G -0-   -0-   -0-  -0-  -0-  -0-   -2-  -2-   ---  -0-  -0-   ---   -0-   ---   ---  ---

D -2-   ---   -0-  ---  -2-  ---   -0-  ---   -2-  ---  -2-   -2-   -2-   ---   ---  ---

A -2-   ---   -2-  ---  -3-  ---   ---  ---   -2-  ---  ---   -2-   -3-   ---   ---  ---

E -0-   ---   -3-  ---  -3-  ---   ---  ---   -0-  ---  ---   ---   -3-   ---   ---  ---





E -0-   ---   ---  ---  ---  ---   ---  ---   ---  ---  ---  ---  ---  ---  ---  ---  ---

B -0-   -0-   -3-  -0-  -1-  -0-   ---  -0-   ---  -0-  ---  ---  -0-  ---  ---  -0-  -1-

G -0-   -0-   -0-  -0-  -0-  -0-   -2-  ---   ---  ---  -0-  ---  ---  -0-  ---  ---  ---

D -2-   ---   -0-  ---  -2-  ---   -0-  ---   ---  ---  ---  ---  ---  ---  ---  ---  -0-

D -2-   ---   -0-  ---  -2-  ---   ---  ---   ---  ---  ---  -2-  ---  ---  -2-  ---  -2-

A -2-   ---   -2-  ---  -3-  ---   ---  ---   -2-  ---  ---  -2-  ---  ---  -2-  ---  -3-

E -0-   ---   -3-  ---  -3-  ---   ---  ---   -0-  ---  ---  ---  ---  ---  -0-  ---  -3-





E  ---  -3-  -3-  -3-  -3-  -3-  b-5-  ---  ---  -3-  -5-  -7-  -8-  -7-  ---  -3-  -2-

B  ---  -0-  -0-  -0-  -0-  -3-  b-3-  ---  ---  -3-  -3-  -6-  ---  ---  -10  -5-  -4-

G  ---  -0-  ---  ---  ---  ---  b-5-  ---  ---  -5-  -5-  -9-  ---  ---  ---  -5-  -2-

D  -2-  -2-  ---  ---  ---  ---  b-5-  ---  ---  ---  -5-  -9-  ---  ---  ---  ---  -4-

A  -2-  ---  ---  ---  ---  ---  b-3-  ---  ---  ---  ---  -7-  ---  ---  ---  ---  ---

E  -0-  ---  ---  ---  ---  ---  b---  ---  ---  ---  ---  -7-  ---  ---  ---  ---  ---





E  -0-  ---  ---  ---  ---  ---  ---  ---  ---  ---  ---  ---  ---  ---  ---  ---  ---

B  -0-  -0-  -1-  -0-  -0-  -1-  -0-  -1-  -0-  ---  ---  ---  -(this is the basic--  

G  -0-  -0-  -0-  -2-  -0-  ---  ---  ---  ---  -2-  -0-  ---  ---  -idea of it,--  --

D  ---  -2-  -2-  ---  -2-  ---  ---  ---  ---  -2-  -2-  ---  --play next bridge and-

A  ---  -2-  -3-  ---  -2-  ---  ---  ---  ---  -2-  -3-  ---  ---repeat this part  --

E  ---  ---  ---  ---  -0-  ---  ---  ---  ---  ---  ---  ---  with improv. variation)





E  ---  ---  ---  ---  ---  ---  ---  ---  ---  ---  ---  ---  ---  ---  ---  ---  

B  ---  ---  ---  ---  ---  ---  ---  ---  ---  ---  ---  ---  ---  ---  ---  ---  

G  ---  ---  ---  ---  ---  ---  ---  -2-  -3-  -2-  ---  ---  ---  ---  ---  ---  

D  ---  ---  ---  ---  ---  -2-  -3-  ---  ---  ---  -3-  -2-  ---  ---  ---  ---  

A  ---  ---  ---  -2-  -3-  ---  ---  ---  ---  ---  ---  ---  -3-  -2-  ---  ---  

E  -0-  -2-  -3-  ---  ---  ---  ---  ---  ---  ---  ---  ---  ---  ---  -3-  -2-  





E  ---  ---  ---  ---  ---  ---  ---  ---  ---  ---  ---  ---  ---  ---  ---  ---  

B  ---  ---  ---  ---  ---  ---  ---  ---  ---  ---  ---  ---  ---  ---  ---  ---  

G  ---  ---  ---  ---  ---  ---  ---  -2-  -3-  -2-  ---  ---  ---  ---  ---  ---  

D  ---  ---  ---  ---  ---  -2-  -3-  ---  ---  ---  -3-  -2-  ---  ---  ---  ---  

A  ---  ---  ---  -2-  -3-  ---  ---  ---  ---  ---  ---  ---  -3-  -2-  ---  ---  

E  -0-  -2-  -3-  ---  ---  ---  ---  ---  ---  ---  ---  ---  ---  ---  -3-  -2-  





E  -(and there's  b-10-  ----  ----  ----  b-3-  ---  ---  ---  b-10-  ----  ----  ----  b-3-  ---

B  ---only this   b-12-  -10-  -13-  -12-  b-5-  ---  ---  ---  b-12-  -10-  -13-  -12-  b-5-  ---

G  ---part left)  b-12-  -12-  -12-  -12-  b-5-  ---  ---  ---  b-12-  -12-  -12-  -12-  b-5-  ---

D  ---  ---  ---  b-12-  -12-  -12-  -12-  b-5-  ---  ---  ---  b-12-  -12-  -12-  -12-  b-5-  ---

A  ---  ---  ---  b-10-  ----  ----  ----  b-3-  ---  ---  ---  b-10-  ----  ----  ----  b-3-  ---

E  ---  ---  ---  b-10-  ----  ----  ----  b-3-  ---  ---  ---  b-10-  ----  ----  ----  b-3-  ---





E  ---  ---  b-7-  -7-  ---  b-10-  -10-  ---  b-3-  ---  ---  ---  ---  ---  ---  ---  ---

B  ---  ---  b-8-  -8-  ---  b-12-  -12-  ---  b-5-  ---  ---  ---  ---  ---  ---  ---  ---

G  ---  ---  b-9-  -9-  ---  b-12-  -12-  ---  b-5-  ---  surf's up dude!---  ---  ---  ---

D  ---  ---  b-9-  -9-  ---  b-12-  -12-  ---  b-5-  ---  ---  ---  ---  ---  ---  ---  ---

A  ---  ---  b-7-  -7-  ---  b-10-  -10-  ---  b-3-  ---  ---  ---  ---  ---  ---  ---  ---

E  ---  ---  b-7-  -7-  ---  b-10-  -10-  ---  b-3-  ---  ---  ---  ---  ---  ---  ---  ---





E  ---  ---  b-7-  -7-  ---  b-10-  -10-  ---  b-3-  ---  ---  ---  ---  ---  ---  ---  ---

B  ---  ---  b-8-  -8-  ---  b-12-  -12-  ---  b-5-  ---  ---  ---  ---  ---  ---  ---  ---

G  ---  ---  b-9-  -9-  ---  b-12-  -12-  ---  b-5-  ---  surf's up dude!---  ---  ---  ---

D  ---  ---  b-9-  -9-  ---  b-12-  -12-  ---  b-5-  ---  ---  ---  ---  ---  ---  ---  ---

A  ---  ---  b-7-  -7-  ---  b-10-  -10-  ---  b-3-  ---  ---  ---  ---  ---  ---  ---  ---

E  ---  ---  b-7-  -7-  ---  b-10-  -10-  ---  b-3-  ---  ---  ---  ---  ---  ---  ---  ---





E  ---  ---  ---  ---  ---  ---  ---  ---  ---  ---  ---  ---  ---  ---  ---  ---  ---

B  ---  (and then---   ---  ---  ---  ---  ---  ---  ---  ---  ---  ---  ---  ---  ---

G  ---  ---back  ---   ---  ---  ---  ---  ---  ---  ---  ---  ---  ---  ---  ---  ---

D  ---  ---to  -----   ---  ---  ---  ---  ---  ---  ---  ---  ---  ---  ---  ---  ---

A  ---  ---the  ---    ---  ---  ---  ---  ---  ---  ---  ---  ---  ---  ---  ---  ---

E  ---  ---main part)  ---  ---  ---  ---  ---  ---  ---  ---  ---  ---  ---  ---  ---





Back | Home Page | About Us | Photo Album | What's New