"My Dog" Tab

1994 Sissyfag Music

notated by Joe Jack Talcum, written by We're Not From Idaho (Joe Genaro & J.P. Hasson), as performed by Touch Me Zoo




    Ebmaj7             gm                  Bb                                   

E  -3-  -3-  --- ---  -3-  -3-  ---  ---  -6-  -6-  ---  -6-  ---  -6-  -6-  ---

B  -3-  -3-  --- ---  -3-  -3-  ---  ---  -6-  -6-  ---  -6-  ---  -6-  -6-  ---

G  -3-  -3-  --- ---  -3-  -3-  ---  ---  -7(7)-7-  ---  -7-  ---  -7-  -7-  ---

D  -5-  -5-  --- ---  -5-  -5-  ---  ---  -8-  -8(10)(8) -8-  ---  -8(8)-8-  ---

A  -6-  -6-  --- ---  -5-  -5-  ---  ---  -8-  -8-  ---  -8(8-10)  -8-  -8-  ---

E  -3-  -3-  --- ---  -3-  -3-  ---  ---  -6-  -6-  ---  -6-  ---  -6-  -6-  ---

        Stories of   battered women filled newspapers.                        The black and





    Ebmaj7             gm                  Bb                                   

E  -3-  -3-  --- ---  -3-  -3-  ---  ---  -6-  -6-  ---  -6-  ---  -6-  -6-  ---

B  -3-  -3-  --- ---  -3-  -3-  ---  ---  -6-  -6-  ---  -6-  ---  -6-  -6-  ---

G  -3-  -3-  --- ---  -3-  -3-  ---  ---  -7(7)-7-  ---  -7-  ---  -7-  -7-  ---

D  -5-  -5-  --- ---  -5-  -5-  ---  ---  -8-  -8(10)(8) -8-  ---  -8(8)-8-  ---

A  -6-  -6-  --- ---  -5-  -5-  ---  ---  -8-  -8-  ---  -8(8-10)  -8-  -8-  ---

E  -3-  -3-  --- ---  -3-  -3-  ---  ---  -6-  -6-  ---  -6-  ---  -6-  -6-  ---

   white rubbed off    in my hand.                                         It needed to be





    Ebmaj7             gm                  Bb                                   

E  -3-  -3-  --- ---  -3-  -3-  ---  ---  -6-  -6-  ---  -6-  ---  -6-  -6-  ---

B  -3-  -3-  --- ---  -3-  -3-  ---  ---  -6-  -6-  ---  -6-  ---  -6-  -6-  ---

G  -3-  -3-  --- ---  -3-  -3-  ---  ---  -7(7)-7-  ---  -7-  ---  -7-  -7-  ---

D  -5-  -5-  --- ---  -5-  -5-  ---  ---  -8-  -8(10)(8) -8-  ---  -8(8)-8-  ---

A  -6-  -6-  --- ---  -5-  -5-  ---  ---  -8-  -8-  ---  -8(8-10)  -8-  -8-  ---

E  -3-  -3-  --- ---  -3-  -3-  ---  ---  -6-  -6-  ---  -6-  ---  -6-  -6-  ---

   washed off but I   liked it.    There aren't enough o's in soap        There aren't enough





    Ebmaj7             gm                  Bb                                   

E  -3-  -3-  --- ---  -3-  -3-  ---  ---  -6-  -6-  ---  -6-  ---  -6-  -6-  ---

B  -3-  -3-  --- ---  -3-  -3-  ---  ---  -6-  -6-  ---  -6-  ---  -6-  -6-  ---

G  -3-  -3-  --- ---  -3-  -3-  ---  ---  -7(7)-7-  ---  -7-  ---  -7-  -7-  ---

D  -5-  -5-  --- ---  -5-  -5-  ---  ---  -8-  -8(10)(8) -8-  ---  -8(8)-8-  ---

A  -6-  -6-  --- ---  -5-  -5-  ---  ---  -8-  -8-  ---  -8(8-10)  -8-  -8-  ---

E  -3-  -3-  --- ---  -3-  -3-  ---  ---  -6-  -6-  ---  -6-  ---  -6-  -6-  ---

    e's in weed.                      The garden   is   getting   dry       it





    cm                  gm                  cm                  gm               

E  -3-  ---  ---  ---  -3-  ---  ---  ---  -3-  ---  ---  ---  -3-  ---  ---  ---

B  -4-  ---  ---  ---  -3-  ---  ---  ---  -4-  ---  ---  ---  -3-  ---  ---  ---

G  -5-  ---  ---  ---  -3-  ---  ---  ---  -5-  ---  ---  ---  -3-  ---  ---  ---

D  -5-  ---  ---  ---  -5-  ---  ---  ---  -5-  ---  ---  ---  -5-  ---  ---  ---

A  -3-  ---  ---  ---  -5-  ---  ---  ---  -3-  ---  ---  ---  -5-  ---  ---  ---

E  -3-  ---  ---  ---  -3-  ---  ---  ---  -3-  ---  ---  ---  -3-  ---  ---  ---

   needs to be  harvested for winter.      By the fire we're   sleeping together.





    Eb                  Bb                  D                   Eb               

E  -6-  ---  ---  ---  -6-  ---  ---  ---  -5-  ---  ---  ---  -6-  ---  ---  ---

B  -8-  ---  ---  ---  -6-  ---  ---  ---  -7-  ---  ---  ---  -8-  ---  ---  ---

G  -8-  ---  ---  ---  -7-  ---  ---  ---  -7-  ---  ---  ---  -8-  ---  ---  ---

D  -8-  ---  ---  ---  -8-  ---  ---  ---  -7-  ---  ---  ---  -8-  ---  ---  ---

A  -6-  ---  ---  ---  -8-  ---  ---  ---  -5-  ---  ---  ---  -6-  ---  ---  ---

E  -6-  ---  ---  ---  -6-  ---  ---  ---  -5-  ---  ---  ---  -6-  ---  ---  ---

   We should add more  logs to keep        warm.    I  wanna   be   in the rodeo and





    Eb                  Ebmaj7                               

E  -6-  ---  ---  ---  -6-  ---  ---  ---  -6-  ---  ---  ---

B  -8-  ---  ---  ---  -8-  ---  ---  ---  -8-  ---  ---  ---

G  -8-  ---  ---  ---  -7-  ---  ---  ---  -7-  ---  ---  ---

D  -8-  ---  ---  ---  -8-  ---  ---  ---  -8-  ---  ---  ---

A  -6-  ---  ---  ---  -6-  ---  ---  ---  -6-  ---  ---  ---

E  -6-  ---  ---  ---  -6-  ---  ---  ---  -6-  ---  ---  ---

   ride the bull      forever.





The next verse uses the same chords as above:

Once upon a time
I was an old man
I wanted an old woman
but I found a dog instead
She was fat and furry
She'd eat her meals in a hurry
She was nothing like Cracer
who ate very slow






    Bb                  gm          F        Bb                   gm          F      

E  -6-  ---  ---  ---  -10-  ---  --8-  ---  -6-  ---  ---  ---  -10-  ---  --8-  ---

B  -6-  ---  ---  ---  -11-  ---  -10-  ---  -6-  ---  ---  ---  -11-  ---  -10-  ---

G  -7-  ---  ---  ---  -12-  ---  -10-  ---  -7-  ---  ---  ---  -12-  ---  -10-  ---

D  -8-  ---  ---  ---  -12-  ---  -10-  ---  -8-  ---  ---  ---  -12-  ---  -10-  ---

A  -8-  ---  ---  ---  -10-  ---  --8-  ---  -8-  ---  ---  ---  -10-  ---  --8-  ---

E  -6-  ---  ---  ---  -10-  ---  --8-  ---  -6-  ---  ---  ---  -10-  ---  --8-  ---

 She'd                stay with    me til   five  a.m.    and   go  watch  Hawaii    Five





    Eb                  Bb        D         Eb                  Bb        D      

E  -6-  ---  ---  ---  -6-  ---  -5-  ---  -6-  ---  ---  ---  -6-  ---  -5-  ---

B  -8-  ---  ---  ---  -6-  ---  -7-  ---  -8-  ---  ---  ---  -6-  ---  -7-  ---

G  -8-  ---  ---  ---  -7-  ---  -7-  ---  -8-  ---  ---  ---  -7-  ---  -7-  ---

D  -8-  ---  ---  ---  -8-  ---  -7-  ---  -8-  ---  ---  ---  -8-  ---  -7-  ---

A  -6-  ---  ---  ---  -8-  ---  -5-  ---  -6-  ---  ---  ---  -8-  ---  -5-  ---

E  -6-  ---  ---  ---  -6-  ---  -5-  ---  -6-  ---  ---  ---  -6-  ---  -5-  ---

   -0                    My    Dog   has  great muscle      control             I





    Bb                  gm          F        Bb                   gm          F      

E  -6-  ---  ---  ---  -10-  ---  --8-  ---  -6-  ---  ---  ---  -10-  ---  --8-  ---

B  -6-  ---  ---  ---  -11-  ---  -10-  ---  -6-  ---  ---  ---  -11-  ---  -10-  ---

G  -7-  ---  ---  ---  -12-  ---  -10-  ---  -7-  ---  ---  ---  -12-  ---  -10-  ---

D  -8-  ---  ---  ---  -12-  ---  -10-  ---  -8-  ---  ---  ---  -12-  ---  -10-  ---

A  -8-  ---  ---  ---  -10-  ---  --8-  ---  -8-  ---  ---  ---  -10-  ---  --8-  ---

E  -6-  ---  ---  ---  -10-  ---  --8-  ---  -6-  ---  ---  ---  -10-  ---  --8-  ---

  took her to a          show and paid for   popcorn             and soda





    Eb                  Bb        D         Eb                  Bb        D      

E  -6-  ---  ---  ---  -6-  ---  -5-  ---  -6-  ---  ---  ---  -6-  ---  -5-  ---

B  -8-  ---  ---  ---  -6-  ---  -7-  ---  -8-  ---  ---  ---  -6-  ---  -7-  ---

G  -8-  ---  ---  ---  -7-  ---  -7-  ---  -8-  ---  ---  ---  -7-  ---  -7-  ---

D  -8-  ---  ---  ---  -8-  ---  -7-  ---  -8-  ---  ---  ---  -8-  ---  -7-  ---

A  -6-  ---  ---  ---  -8-  ---  -5-  ---  -6-  ---  ---  ---  -8-  ---  -5-  ---

E  -6-  ---  ---  ---  -6-  ---  -5-  ---  -6-  ---  ---  ---  -6-  ---  -5-  ---

   {guitar solo starts here}





    Ebmaj7              gm                  Bb                                   

E  -3-  -3-  ---  ---  -3-  -3-  ---  ---  -6-  -6-  ---  -6-  ---  -6-  -6-  ---

B  -3-  -3-  ---  ---  -3-  -3-  ---  ---  -6-  -6-  ---  -6-  ---  -6-  -6-  ---

G  -3-  -3-  ---  ---  -3-  -3-  ---  ---  -7-  -7-  ---  -7-  ---  -7-  -7-  ---

D  -5-  -5-  ---  ---  -5-  -5-  ---  ---  -8-  -8-  ---  -8-  ---  -8-  -8-  ---

A  -6-  -6-  ---  ---  -5-  -5-  ---  ---  -8-  -8-  ---  -8-  ---  -8-  -8-  ---

E  -3-  -3-  ---  ---  -3-  -3-  ---  ---  -6-  -6-  ---  -6-  ---  -6-  -6-  ---





    Ebmaj7              gm                  Bb                                   

E  -3-  -3-  ---  ---  -3-  -3-  ---  ---  -6-  -6-  ---  -6-  ---  -6-  -6-  ---

B  -3-  -3-  ---  ---  -3-  -3-  ---  ---  -6-  -6-  ---  -6-  ---  -6-  -6-  ---

G  -3-  -3-  ---  ---  -3-  -3-  ---  ---  -7-  -7-  ---  -7-  ---  -7-  -7-  ---

D  -5-  -5-  ---  ---  -5-  -5-  ---  ---  -8-  -8-  ---  -8-  ---  -8-  -8-  ---

A  -6-  -6-  ---  ---  -5-  -5-  ---  ---  -8-  -8-  ---  -8-  ---  -8-  -8-  ---

E  -3-  -3-  ---  ---  -3-  -3-  ---  ---  -6-  -6-  ---  -6-  ---  -6-  -6-  ---





    Ebmaj7              gm                  Bb                                   

E  -3-  -3-  ---  ---  -3-  -3-  ---  ---  -6-  -6-  ---  -6-  ---  -6-  -6-  ---

B  -3-  -3-  ---  ---  -3-  -3-  ---  ---  -6-  -6-  ---  -6-  ---  -6-  -6-  ---

G  -3-  -3-  ---  ---  -3-  -3-  ---  ---  -7-  -7-  ---  -7-  ---  -7-  -7-  ---

D  -5-  -5-  ---  ---  -5-  -5-  ---  ---  -8-  -8-  ---  -8-  ---  -8-  -8-  ---

A  -6-  -6-  ---  ---  -5-  -5-  ---  ---  -8-  -8-  ---  -8-  ---  -8-  -8-  ---

E  -3-  -3-  ---  ---  -3-  -3-  ---  ---  -6-  -6-  ---  -6-  ---  -6-  -6-  ---





    Ebmaj7              gm                  Bb                                   

E  -3-  -3-  ---  ---  -3-  -3-  ---  ---  -6-  -6-  ---  -6-  ---  -6-  -6-  ---

B  -3-  -3-  ---  ---  -3-  -3-  ---  ---  -6-  -6-  ---  -6-  ---  -6-  -6-  ---

G  -3-  -3-  ---  ---  -3-  -3-  ---  ---  -7-  -7-  ---  -7-  ---  -7-  -7-  ---

D  -5-  -5-  ---  ---  -5-  -5-  ---  ---  -8-  -8-  ---  -8-  ---  -8-  -8-  ---

A  -6-  -6-  ---  ---  -5-  -5-  ---  ---  -8-  -8-  ---  -8-  ---  -8-  -8-  ---

E  -3-  -3-  ---  ---  -3-  -3-  ---  ---  -6-  -6-  ---  -6-  ---  -6-  -6-  ---





Last verse (a double verse) over same chords as first verse (twice):

The trees started a conversation
They were talking about lifeboats
How could they get them and how much did they cost?
Money grows on trees you know
But they were too dumb to remember
osmosis
Then some kid came along with crayons and colored
one of the trees yellow and the other one burnt sienna
They wished she would have colored them
blue and gold
Then they melted into the sky
along with my dog
and me
Then they melted into the sky along with my dog and me
never to be seen again.






{Here is a very rough outline of the "solo" I did (I never did it quite the same every time
I always sort of "wung it" in sections) and I'm not paying any attention to "meter" in this tab,
just the basic notes, just to give a basic idea where I was playing it}

E  ----  ----  ----  ----  ---  ---  ---  ---  ---  ---  ---  ----  ----  ---  ---  ---

B  ----  ----  ----  ----  ---  ---  ---  ---  ---  ---  ---  ----  ----  ---  ---  ---

G  -12-  -10-  -10-  -10-  -8-  -7-  -8-  -8-  -7-  ---  ---  -12-  -10-  -8-  -7-  -8-

D  ----  ----  ----  ----  ---  ---  ---  ---  ---  -8-  ---  ----  ----  ---  ---  ---

A  ----  ----  ----  ----  ---  ---  ---  ---  ---  ---  ---  ----  ----  ---  ---  ---

E  ----  ----  ----  ----  ---  ---  ---  ---  ---  ---  ---  ----  ----  ---  ---  ---





E  ---  ---  ---    ---  ----  ----  ---  ----  ----  ----  ---  ----  ---  ----  -10-  -11-

B  ---  ---  ---    ---  ----  ----  ---  ----  ----  ----  ---  ----  ---  ----  ----  ----

G  ---  ---  ---    ---  ----  ----  ---  ----  ----  ----  -8-  ----  -8-  -10-  ----  ----

D  -8-  -8-  -8-10  -8-  -10-  -10-  -8-  -10-  -10-  -12-  ---  -12-  ---  ----  ----  ----

A  ---  ---  ---    ---  ----  ----  ---  ----  ----  ----  ---  ----  ---  ----  ----  ----

E  ---  ---  ---    ---  ----  ----  ---  ----  ----  ----  ---  ----  ---  ----  ----  ----





E  -13-  -11-  -10-  ----  ---  ---  ---  ---  ---  ---  ----  ----  ---  ---    ----  ---

B  ----  ----  ----  ----  ---  ---  ---  ---  ---  ---  ----  ----  ---  ---    ----  ---

G  ----  ----  ----  -10-  -8-  -7-  -8-  -7-  ---  ---  ----  ----  ---  ---    ----  -8-

D  ----  ----  ----  ----  ---  ---  ---  ---  -8-  -8-  -10-  -10-  -8-  -8-12  -12-  ---

A  ----  ----  ----  ----  ---  ---  ---  ---  ---  ---  ----  ----  ---  ---    ----  ---

E  ----  ----  ----  ----  ---  ---  ---  ---  ---  ---  ----  ----  ---  ---    ----  ---





E  ----  ---  ----  ---  ---  ---  ---  ---  ---  ----  ---  ---  ---  ---  ----  ---

B  ----  ---  ----  ---  ---  ---  ---  ---  ---  ----  ---  ---  ---  ---  ----  ---

G  -10-  -8-  ----  ---  ---  -8-  -8-  -8-  -7-  ----  -8-  -8-  -8-  -7-  -10-  ---

D  ----  ---  -12-  ---  ---  ---  ---  ---  ---  ----  ---  ---  ---  ---  ----  ---

A  ----  ---  ----  ---  ---  ---  ---  ---  ---  -10-  ---  ---  ---  ---  ----  ---

E  ----  ---  ----  ---  ---  ---  ---  ---  ---  ----  ---  ---  ---  ---  ----  ---





E  ---  ---  ---  ---  ----  ---  ---  ---  ----  ---  ---  ---  ----  ---  ---  ---

B  ---  ---  ---  ---  ----  ---  ---  ---  ----  ---  ---  ---  ----  ---  ---  ---

G  -8-  -8-  -7-  -8-  -10-  -8-  -7-  -8-  -10-  -8-  -7-  -8-  -10-  -8-  -7-  -8-

D  ---  ---  ---  ---  ----  ---  ---  ---  ----  ---  ---  ---  ----  ---  ---  ---

A  ---  ---  ---  ---  ----  ---  ---  ---  ----  ---  ---  ---  ----  ---  ---  ---

E  ---  ---  ---  ---  ----  ---  ---  ---  ----  ---  ---  ---  ----  ---  ---  ---





E  ----  ---  -10-  ---  -10-  ---  -10-  ---  -10-  ---  -11-  ---  ---  ---  ---  ---

B  ----  ---  ----  ---  ----  ---  ----  ---  ----  ---  ----  ---  ---  ---  ---  ---

G  -10-  -8-  ----  -8-  ----  -8-  ----  -8-  ----  -8-  ----  ---  ---  ---  ---  ---

D  ----  ---  ----  ---  ----  ---  ----  ---  ----  ---  ----  ---  ---  ---  ---  ---

A  ----  ---  ----  ---  ----  ---  ----  ---  ----  ---  ----  ---  ---  ---  ---  ---

E  ----  ---  ----  ---  ----  ---  ----  ---  ----  ---  ----  ---  ---  ---  ---  ---





Back | Home Page | About Us | Photo Album | What's New


This page hosted by Get your own Free Homepage