"Brat in the Frat" Tab

1988 Golf Pro Music

notated by Joe Jack Talcum, written by The Dead Milkmen




E  ----  ----  ---  ---  ----  ----  ---  ---  ----  ----  ----  ----  ---  ----  ---  ---

B  ----  ----  ---  ---  ----  ----  ---  ---  ----  ----  ----  ----  -9-  -10-  ---  ---

G  ----  -11-  ---  ---  -10-  -11-  ---  ---  ----  -11-  -10-  -11-  ---  ----  ---  ---

D  -11-  ----  ---  ---  ----  ----  ---  ---  -11-  ----  ----  ----  ---  ----  ---  ---

A  ----  ----  ---  ---  ----  ----  ---  ---  ----  ----  ----  ----  ---  ----  ---  ---

E  ----  ----  ---  ---  ----  ----  ---  ---  ----  ----  ----  ----  ---  ----  ---  ---





E  ----  ----  ---  ---  ---  ----  ---  ---  ----  ----  ---  ----  ----  -9-  ---  ---

B  ----  -10-  ---  ---  -9-  -10-  ---  ---  ----  -10-  -9-  -10-  -12-  ---  ---  ---

G  -11-  ----  ---  ---  ---  ----  ---  ---  -11-  ----  ---  ----  ----  ---  ---  ---

D  ----  ----  ---  ---  ---  ----  ---  ---  ----  ----  ---  ----  ----  ---  ---  ---

A  ----  ----  ---  ---  ---  ----  ---  ---  ----  ----  ---  ----  ----  ---  ---  ---

E  ----  ----  ---  ---  ---  ----  ---  ---  ----  ----  ---  ----  ----  ---  ---  ---





E  9-9  -10-  -9-  ----  -----  ----  -9-  -10-  -9-  12-10  -9-  12-10  -9-  12-10  -9-  -10-

B  ---  ----  ---  -12-  12-12  -12-  ---  ----  ---  -----  ---  -----  ---  -----  ---  ----

G  ---  ----  ---  ----  -----  ----  ---  ----  ---  -----  ---  -----  ---  -----  ---  ----

D  ---  ----  ---  ----  -----  ----  ---  ----  ---  -----  ---  -----  ---  -----  ---  ----

A  ---  ----  ---  ----  -----  ----  ---  ----  ---  -----  ---  -----  ---  -----  ---  ----

E  ---  ----  ---  ----  -----  ----  ---  ----  ---  -----  ---  -----  ---  -----  ---  ----





E  -9-  ----  -10-  -9-  ----  ----  ---  ----  ----  ---  ----  ---  ----  ----  ---  ---*

B  ---  -12-  ----  ---  -12-  -10-  -9-  ----  -10-  -9-  ----  ---  ----  ----  ---  ---*

G  ---  ----  ----  ---  ----  ----  ---  -11-  ----  ---  -11-  ---  -10-  -11-  ---  ---*

D  ---  ----  ----  ---  ----  ----  ---  ----  ----  ---  ----  ---  ----  ----  ---  ---*

A  ---  ----  ----  ---  ----  ----  ---  ----  ----  ---  ----  ---  ----  ----  ---  ---*

E  ---  ----  ----  ---  ----  ----  ---  ----  ----  ---  ----  ---  ----  ----  ---  ---*





E  ---  ----  ---  ----  ---  ----  -----  ----  ---  ----  ---  ----  ---  ----  -----  ----

B  ---  -10-  ---  -10-  ---  -10-  12-10  9---  ---  -10-  ---  -10-  ---  -10-  12-10  9---

G  ---  -11-  ---  -11-  ---  -11-  -----  --10  ---  -11-  ---  -11-  ---  -11-  -----  --10

D  ---  -11-  ---  -11-  ---  -11-  -----  ----  ---  -11-  ---  -11-  ---  -11-  -----  ----

A  -9-  ----  ---  ----  ---  ----  -----  ----  -9-  ----  ---  ----  ---  ----  -----  ----

E  ---  ----  ---  ----  ---  ----  -----  ----  ---  ----  ---  ----  ---  ----  -----  ----





E  ---  ----  ---  ----  ---  ----  -----  ----  ---  ----  ---  ----  ---  ----  -----  ----

B  ---  -10-  ---  -10-  ---  -10-  12-10  9---  ---  -10-  ---  -10-  ---  -10-  12-10  9---

G  ---  -11-  ---  -11-  ---  -11-  -----  --10  ---  -11-  ---  -11-  ---  -11-  -----  --10

D  ---  -11-  ---  -11-  ---  -11-  -----  ----  ---  -11-  ---  -11-  ---  -11-  -----  ----

A  -9-  ----  ---  ----  ---  ----  -----  ----  -9-  ----  ---  ----  ---  ----  -----  ----

E  ---  ----  ---  ----  ---  ----  -----  ----  ---  ----  ---  ----  ---  ----  -----  ----





E  ---  ---  ---  ---  -9-  -7-  ---  ---  ----  --9-  ---  --9-  -12-  -9-  ----  ----

B  ---  -9-  ---  -9-  ---  ---  -9-  ---  -10-  -10-  ---  -10-  ----  ---  -12-  -10-

G  ---  -9-  ---  -9-  ---  ---  ---  -9-  ----  --9-  ---  --9-  ----  ---  ----  ----

D  ---  -9-  ---  -9-  ---  ---  ---  ---  ----  ----  ---  ----  ----  ---  ----  ----

A  -7-  ---  ---  ---  ---  ---  ---  ---  ----  ----  ---  ----  ----  ---  ----  ----

E  ---  ---  ---  ---  ---  ---  ---  ---  ----  ----  ---  ----  ----  ---  ----  ----





E  ----  -14-  ---  ----  -14-  ----  ----  ----  ----  ----  ----  ----  ----  ---  ---  ---

B  -15-  -15-  ---  -15-  ----  -17-  -15-  -14-  -15-  -14-  -12-  -10-  ----  ---  ---  ---

G  ----  -14-  ---  -14-  ----  ----  ----  ----  ----  ----  ----  ----  -11-  ---  ---  ---repeat to *

D  ----  ----  ---  ----  ----  ----  ----  ----  ----  ----  ----  ----  -11-  ---  ---  ---

A  ----  ----  ---  ----  ----  ----  ----  ----  ----  ----  ----  ----  --9-  ---  ---  ---

E  ----  ----  ---  ----  ----  ----  ----  ----  ----  ----  ----  ----  ----  ---  ---  ---





Back | Home Page | About Us | Photo Album | What's New